  0
SECTION
  2
HEADER
  9
$ACADVER
  1
AC1009
  9
$INSBASE
 10
0.0
 20
0.0
 30
0.0
  9
$EXTMIN
 10
0.0
 20
0.0
 30
0.0
  9
$EXTMAX
 10
0.0
 20
0.0
 30
0.0
  0
ENDSEC
  0
SECTION
  2
TABLES
  0
TABLE
  2
VPORT
 70
0
  0
ENDTAB
  0
TABLE
  2
LTYPE
 70
1
  0
LTYPE
  2
CONTINUOUS
 70
0
  3
Solid line
 72
65
 73
0
 40
0.0
  0
ENDTAB
  0
TABLE
  2
LAYER
 70
1
  0
LAYER
  2
0
 70
64
 62
7
  6
continuous
  0
ENDTAB
  0
TABLE
  2
STYLE
 70
1
  0
STYLE
  2
STANDARD
 70
0
 40
0
 41
1.0
 50
0.0
 71
0
 42
1
 3
ARIAL.TTF
 4

  0
ENDTAB
  0
TABLE
  2
VIEW
 70
0
  0
ENDTAB
  0
ENDSEC
  0
SECTION
  2
BLOCKS
  0
BLOCK
  8
0
  2
POCKET
 70
0
 10
0.0
 20
0.0
 30
0.0
  3
POCKET
  0
LINE
  8
0
 62
0
 10
51.999987000000374
 20
123.63009679722605
 30
0.0
 11
397.99998700000094
 21
123.63009679722605
 31
0.0
  0
ARC
  8
0
 62
0
 10
397.99998700000094
 20
125.6300967972263
 30
0.0
 40
1.9999999999999998
 50
-0.572208459456215
 51
-0.0
  0
ARC
  8
0
 62
0
 10
397.99998700000094
 20
125.6300967972263
 30
0.0
 40
1.9999999999999998
 50
-90.0
 51
-0.572208459456215
  0
ARC
  8
0
 62
0
 10
51.999987000000395
 20
125.6300967972263
 30
0.0
 40
1.9999999999999998
 50
180.0
 51
-90.0
  0
ARC
  8
0
 62
0
 10
397.99998700000094
 20
471.63009679722666
 30
0.0
 40
1.9999999999999998
 50
0.5722081911371397
 51
90.0
  0
ARC
  8
0
 62
0
 10
397.99998700000094
 20
471.63009679722666
 30
0.0
 40
1.9999999999999998
 50
-0.0
 51
0.5722081911371397
  0
LINE
  8
0
 62
0
 10
397.99998700000094
 20
473.6300967972262
 30
0.0
 11
51.999987000000544
 21
473.6300967972262
 31
0.0
  0
ARC
  8
0
 62
0
 10
51.999987000000594
 20
471.63009679722666
 30
0.0
 40
1.9999999999999998
 50
179.79341702197596
 51
-180.0
  0
ARC
  8
0
 62
0
 10
51.999987000000594
 20
471.63009679722666
 30
0.0
 40
1.9999999999999998
 50
90.0
 51
179.79341702197596
  0
LINE
  8
0
 62
0
 10
49.999987000000594
 20
471.63009679722666
 30
0.0
 11
49.999987000000594
 21
125.63009679722643
 31
0.0
  0
LINE
  8
0
 62
0
 10
399.99998700000094
 20
125.63009679722632
 30
0.0
 11
399.99998700000094
 21
471.63009679722666
 31
0.0
  0
LINE
  8
0
 62
0
 10
151.16665366666697
 20
213.63009679722617
 30
0.0
 11
217.16665366666697
 21
213.63009679722617
 31
0.0
  0
ARC
  8
0
 62
0
 10
217.16665366666697
 20
211.63009679722623
 30
0.0
 40
1.9999999999999998
 50
-0.0
 51
90.0
  0
LINE
  8
0
 62
0
 10
219.16665366666697
 20
211.63009679722623
 30
0.0
 11
219.16665366666697
 21
145.63009679722632
 31
0.0
  0
ARC
  8
0
 62
0
 10
217.16665366666697
 20
145.6300967972264
 30
0.0
 40
1.9999999999999998
 50
-90.0
 51
-0.0
  0
LINE
  8
0
 62
0
 10
217.16665366666697
 20
143.63009679722606
 30
0.0
 11
151.16665366666697
 21
143.63009679722606
 31
0.0
  0
ARC
  8
0
 62
0
 10
151.16665366666697
 20
145.6300967972264
 30
0.0
 40
1.9999999999999998
 50
-180.0
 51
-90.0
  0
LINE
  8
0
 62
0
 10
149.16665366666697
 20
145.63009679722632
 30
0.0
 11
149.16665366666697
 21
211.63009679722626
 31
0.0
  0
ARC
  8
0
 62
0
 10
151.16665366666697
 20
211.63009679722623
 30
0.0
 40
1.9999999999999998
 50
90.0
 51
-180.0
  0
LINE
  8
0
 62
0
 10
69.49998700000047
 20
458.63009679722626
 30
0.0
 11
135.49998700000097
 21
458.63009679722626
 31
0.0
  0
ARC
  8
0
 62
0
 10
135.49998700000097
 20
456.6300967972266
 30
0.0
 40
1.9999999999999998
 50
-0.0
 51
90.0
  0
LINE
  8
0
 62
0
 10
137.49998700000097
 20
456.63009679722666
 30
0.0
 11
137.49998700000097
 21
390.6300967972262
 31
0.0
  0
ARC
  8
0
 62
0
 10
135.49998700000097
 20
390.6300967972262
 30
0.0
 40
1.9999999999999998
 50
-90.0
 51
-0.0
  0
LINE
  8
0
 62
0
 10
135.499987000001
 20
388.63009679722666
 30
0.0
 11
69.49998700000059
 21
388.63009679722666
 31
0.0
  0
ARC
  8
0
 62
0
 10
69.49998700000059
 20
390.6300967972262
 30
0.0
 40
1.9999999999999998
 50
-180.0
 51
-90.0
  0
LINE
  8
0
 62
0
 10
67.49998700000059
 20
390.6300967972262
 30
0.0
 11
67.49998700000059
 21
456.63009679722666
 31
0.0
  0
ARC
  8
0
 62
0
 10
69.49998700000049
 20
456.6300967972266
 30
0.0
 40
1.9999999999999998
 50
90.0
 51
-180.0
  0
LINE
  8
0
 62
0
 10
314.49998700000094
 20
376.96343013055986
 30
0.0
 11
380.49998700000094
 21
376.96343013055986
 31
0.0
  0
ARC
  8
0
 62
0
 10
380.49998700000094
 20
374.9634301305594
 30
0.0
 40
1.9999999999999998
 50
-0.0
 51
90.0
  0
LINE
  8
0
 62
0
 10
382.49998700000094
 20
374.9634301305593
 30
0.0
 11
382.49998700000094
 21
308.96343013055974
 31
0.0
  0
ARC
  8
0
 62
0
 10
380.49998700000094
 20
308.9634301305602
 30
0.0
 40
1.9999999999999998
 50
-90.0
 51
-0.0
  0
LINE
  8
0
 62
0
 10
380.49998700000094
 20
306.9634301305593
 30
0.0
 11
314.49998700000094
 21
306.9634301305593
 31
0.0
  0
ARC
  8
0
 62
0
 10
314.49998700000094
 20
308.9634301305593
 30
0.0
 40
1.9999999999999998
 50
180.0
 51
-90.0
  0
LINE
  8
0
 62
0
 10
312.49998700000094
 20
308.96343013055986
 30
0.0
 11
312.49998700000094
 21
374.9634301305594
 31
0.0
  0
ARC
  8
0
 62
0
 10
314.49998700000094
 20
374.9634301305594
 30
0.0
 40
1.9999999999999998
 50
90.0
 51
-180.0
  0
LINE
  8
0
 62
0
 10
151.16665366666697
 20
458.63009679722626
 30
0.0
 11
217.16665366666697
 21
458.63009679722626
 31
0.0
  0
ARC
  8
0
 62
0
 10
217.16665366666697
 20
456.6300967972266
 30
0.0
 40
1.9999999999999998
 50
-0.0
 51
90.0
  0
LINE
  8
0
 62
0
 10
219.16665366666697
 20
456.63009679722666
 30
0.0
 11
219.16665366666697
 21
390.6300967972262
 31
0.0
  0
ARC
  8
0
 62
0
 10
217.16665366666697
 20
390.6300967972262
 30
0.0
 40
1.9999999999999998
 50
-90.0
 51
-0.0
  0
LINE
  8
0
 62
0
 10
217.16665366666697
 20
388.63009679722666
 30
0.0
 11
151.16665366666697
 21
388.63009679722666
 31
0.0
  0
ARC
  8
0
 62
0
 10
151.16665366666697
 20
390.6300967972262
 30
0.0
 40
1.9999999999999998
 50
-180.0
 51
-90.0
  0
LINE
  8
0
 62
0
 10
149.16665366666697
 20
390.6300967972262
 30
0.0
 11
149.16665366666697
 21
456.63009679722666
 31
0.0
  0
ARC
  8
0
 62
0
 10
151.16665366666697
 20
456.6300967972266
 30
0.0
 40
1.9999999999999998
 50
90.0
 51
-180.0
  0
LINE
  8
0
 62
0
 10
69.49998700000047
 20
213.63009679722617
 30
0.0
 11
135.49998700000097
 21
213.63009679722617
 31
0.0
  0
ARC
  8
0
 62
0
 10
135.49998700000097
 20
211.63009679722623
 30
0.0
 40
1.9999999999999998
 50
-0.0
 51
90.0
  0
LINE
  8
0
 62
0
 10
137.49998700000097
 20
211.63009679722623
 30
0.0
 11
137.49998700000097
 21
145.63009679722632
 31
0.0
  0
ARC
  8
0
 62
0
 10
135.49998700000097
 20
145.6300967972264
 30
0.0
 40
1.9999999999999998
 50
-90.0
 51
-0.0
  0
LINE
  8
0
 62
0
 10
135.499987000001
 20
143.63009679722606
 30
0.0
 11
69.49998700000059
 21
143.63009679722606
 31
0.0
  0
ARC
  8
0
 62
0
 10
69.49998700000059
 20
145.6300967972264
 30
0.0
 40
1.9999999999999998
 50
-180.0
 51
-90.0
  0
LINE
  8
0
 62
0
 10
67.49998700000059
 20
145.63009679722632
 30
0.0
 11
67.49998700000059
 21
211.63009679722626
 31
0.0
  0
ARC
  8
0
 62
0
 10
69.49998700000049
 20
211.63009679722623
 30
0.0
 40
1.9999999999999998
 50
90.0
 51
-180.0
  0
LINE
  8
0
 62
0
 10
232.83332033333394
 20
295.29676346389255
 30
0.0
 11
298.8333203333339
 21
295.29676346389255
 31
0.0
  0
ARC
  8
0
 62
0
 10
298.8333203333339
 20
293.296763463893
 30
0.0
 40
1.9999999999999998
 50
-0.0
 51
90.0
  0
LINE
  8
0
 62
0
 10
300.8333203333339
 20
293.29676346389294
 30
0.0
 11
300.8333203333339
 21
227.29676346389294
 31
0.0
  0
ARC
  8
0
 62
0
 10
298.8333203333339
 20
227.29676346389297
 30
0.0
 40
1.9999999999999998
 50
-90.0
 51
-0.0
  0
LINE
  8
0
 62
0
 10
298.833320333334
 20
225.29676346389297
 30
0.0
 11
232.83332033333397
 21
225.29676346389297
 31
0.0
  0
ARC
  8
0
 62
0
 10
232.83332033333397
 20
227.29676346389297
 30
0.0
 40
1.9999999999999998
 50
-180.0
 51
-90.0
  0
LINE
  8
0
 62
0
 10
230.83332033333397
 20
227.29676346389294
 30
0.0
 11
230.83332033333397
 21
293.29676346389294
 31
0.0
  0
ARC
  8
0
 62
0
 10
232.83332033333397
 20
293.296763463893
 30
0.0
 40
1.9999999999999998
 50
90.0
 51
-180.0
  0
LINE
  8
0
 62
0
 10
232.83332033333394
 20
213.63009679722617
 30
0.0
 11
298.8333203333339
 21
213.63009679722617
 31
0.0
  0
ARC
  8
0
 62
0
 10
298.8333203333339
 20
211.63009679722623
 30
0.0
 40
1.9999999999999998
 50
-0.0
 51
90.0
  0
LINE
  8
0
 62
0
 10
300.8333203333339
 20
211.63009679722623
 30
0.0
 11
300.8333203333339
 21
145.63009679722632
 31
0.0
  0
ARC
  8
0
 62
0
 10
298.8333203333339
 20
145.6300967972264
 30
0.0
 40
1.9999999999999998
 50
-90.0
 51
-0.0
  0
LINE
  8
0
 62
0
 10
298.833320333334
 20
143.63009679722606
 30
0.0
 11
232.83332033333397
 21
143.63009679722606
 31
0.0
  0
ARC
  8
0
 62
0
 10
232.83332033333397
 20
145.6300967972264
 30
0.0
 40
1.9999999999999998
 50
-180.0
 51
-90.0
  0
LINE
  8
0
 62
0
 10
230.83332033333397
 20
145.63009679722632
 30
0.0
 11
230.83332033333397
 21
211.63009679722626
 31
0.0
  0
ARC
  8
0
 62
0
 10
232.83332033333397
 20
211.63009679722623
 30
0.0
 40
1.9999999999999998
 50
90.0
 51
-180.0
  0
LINE
  8
0
 62
0
 10
69.49998700000047
 20
295.29676346389255
 30
0.0
 11
135.49998700000097
 21
295.29676346389255
 31
0.0
  0
ARC
  8
0
 62
0
 10
135.49998700000097
 20
293.296763463893
 30
0.0
 40
1.9999999999999998
 50
-0.0
 51
90.0
  0
LINE
  8
0
 62
0
 10
137.49998700000097
 20
293.29676346389294
 30
0.0
 11
137.49998700000097
 21
227.29676346389294
 31
0.0
  0
ARC
  8
0
 62
0
 10
135.49998700000097
 20
227.29676346389297
 30
0.0
 40
1.9999999999999998
 50
-90.0
 51
-0.0
  0
LINE
  8
0
 62
0
 10
135.499987000001
 20
225.29676346389297
 30
0.0
 11
69.49998700000059
 21
225.29676346389297
 31
0.0
  0
ARC
  8
0
 62
0
 10
69.49998700000059
 20
227.29676346389297
 30
0.0
 40
1.9999999999999998
 50
-180.0
 51
-90.0
  0
LINE
  8
0
 62
0
 10
67.49998700000059
 20
227.29676346389294
 30
0.0
 11
67.49998700000059
 21
293.29676346389294
 31
0.0
  0
ARC
  8
0
 62
0
 10
69.49998700000049
 20
293.296763463893
 30
0.0
 40
1.9999999999999998
 50
90.0
 51
-180.0
  0
LINE
  8
0
 62
0
 10
232.83332033333394
 20
458.63009679722626
 30
0.0
 11
298.8333203333339
 21
458.63009679722626
 31
0.0
  0
ARC
  8
0
 62
0
 10
298.8333203333339
 20
456.6300967972266
 30
0.0
 40
1.9999999999999998
 50
-0.0
 51
90.0
  0
LINE
  8
0
 62
0
 10
300.8333203333339
 20
456.63009679722666
 30
0.0
 11
300.8333203333339
 21
390.6300967972262
 31
0.0
  0
ARC
  8
0
 62
0
 10
298.8333203333339
 20
390.6300967972262
 30
0.0
 40
1.9999999999999998
 50
-90.0
 51
-0.0
  0
LINE
  8
0
 62
0
 10
298.833320333334
 20
388.63009679722666
 30
0.0
 11
232.83332033333397
 21
388.63009679722666
 31
0.0
  0
ARC
  8
0
 62
0
 10
232.83332033333397
 20
390.6300967972262
 30
0.0
 40
1.9999999999999998
 50
-180.0
 51
-90.0
  0
LINE
  8
0
 62
0
 10
230.83332033333397
 20
390.6300967972262
 30
0.0
 11
230.83332033333397
 21
456.63009679722666
 31
0.0
  0
ARC
  8
0
 62
0
 10
232.83332033333397
 20
456.6300967972266
 30
0.0
 40
1.9999999999999998
 50
90.0
 51
-180.0
  0
LINE
  8
0
 62
0
 10
151.16665366666697
 20
295.29676346389255
 30
0.0
 11
217.16665366666697
 21
295.29676346389255
 31
0.0
  0
ARC
  8
0
 62
0
 10
217.16665366666697
 20
293.296763463893
 30
0.0
 40
1.9999999999999998
 50
-0.0
 51
90.0
  0
LINE
  8
0
 62
0
 10
219.16665366666697
 20
293.29676346389294
 30
0.0
 11
219.16665366666697
 21
227.29676346389294
 31
0.0
  0
ARC
  8
0
 62
0
 10
217.16665366666697
 20
227.29676346389297
 30
0.0
 40
1.9999999999999998
 50
-90.0
 51
-0.0
  0
LINE
  8
0
 62
0
 10
217.16665366666697
 20
225.29676346389297
 30
0.0
 11
151.16665366666697
 21
225.29676346389297
 31
0.0
  0
ARC
  8
0
 62
0
 10
151.16665366666697
 20
227.29676346389297
 30
0.0
 40
1.9999999999999998
 50
-180.0
 51
-90.0
  0
LINE
  8
0
 62
0
 10
149.16665366666697
 20
227.29676346389294
 30
0.0
 11
149.16665366666697
 21
293.29676346389294
 31
0.0
  0
ARC
  8
0
 62
0
 10
151.16665366666697
 20
293.296763463893
 30
0.0
 40
1.9999999999999998
 50
90.0
 51
-180.0
  0
LINE
  8
0
 62
0
 10
151.16665366666697
 20
376.96343013055986
 30
0.0
 11
217.16665366666697
 21
376.96343013055986
 31
0.0
  0
ARC
  8
0
 62
0
 10
217.16665366666697
 20
374.9634301305594
 30
0.0
 40
1.9999999999999998
 50
-0.0
 51
90.0
  0
LINE
  8
0
 62
0
 10
219.16665366666697
 20
374.9634301305593
 30
0.0
 11
219.16665366666697
 21
308.96343013055974
 31
0.0
  0
ARC
  8
0
 62
0
 10
217.16665366666697
 20
308.9634301305602
 30
0.0
 40
1.9999999999999998
 50
-90.0
 51
-0.0
  0
LINE
  8
0
 62
0
 10
217.16665366666697
 20
306.9634301305593
 30
0.0
 11
151.16665366666697
 21
306.9634301305593
 31
0.0
  0
ARC
  8
0
 62
0
 10
151.16665366666697
 20
308.9634301305593
 30
0.0
 40
1.9999999999999998
 50
180.0
 51
-90.0
  0
LINE
  8
0
 62
0
 10
149.16665366666697
 20
308.96343013055986
 30
0.0
 11
149.16665366666697
 21
374.9634301305594
 31
0.0
  0
ARC
  8
0
 62
0
 10
151.16665366666697
 20
374.9634301305594
 30
0.0
 40
1.9999999999999998
 50
90.0
 51
-180.0
  0
LINE
  8
0
 62
0
 10
69.49998700000047
 20
376.96343013055986
 30
0.0
 11
135.49998700000097
 21
376.96343013055986
 31
0.0
  0
ARC
  8
0
 62
0
 10
135.49998700000097
 20
374.9634301305594
 30
0.0
 40
1.9999999999999998
 50
-0.0
 51
90.0
  0
LINE
  8
0
 62
0
 10
137.49998700000097
 20
374.9634301305593
 30
0.0
 11
137.49998700000097
 21
308.96343013055974
 31
0.0
  0
ARC
  8
0
 62
0
 10
135.49998700000097
 20
308.9634301305602
 30
0.0
 40
1.9999999999999998
 50
-90.0
 51
-0.0
  0
LINE
  8
0
 62
0
 10
135.499987000001
 20
306.9634301305593
 30
0.0
 11
69.49998700000059
 21
306.9634301305593
 31
0.0
  0
ARC
  8
0
 62
0
 10
69.49998700000059
 20
308.9634301305593
 30
0.0
 40
1.9999999999999998
 50
180.0
 51
-90.0
  0
LINE
  8
0
 62
0
 10
67.49998700000059
 20
308.96343013055986
 30
0.0
 11
67.49998700000059
 21
374.9634301305594
 31
0.0
  0
ARC
  8
0
 62
0
 10
69.49998700000049
 20
374.9634301305594
 30
0.0
 40
1.9999999999999998
 50
90.0
 51
-180.0
  0
LINE
  8
0
 62
0
 10
314.49998700000094
 20
458.63009679722626
 30
0.0
 11
380.49998700000094
 21
458.63009679722626
 31
0.0
  0
ARC
  8
0
 62
0
 10
380.49998700000094
 20
456.6300967972266
 30
0.0
 40
1.9999999999999998
 50
-0.0
 51
90.0
  0
LINE
  8
0
 62
0
 10
382.49998700000094
 20
456.63009679722666
 30
0.0
 11
382.49998700000094
 21
390.6300967972262
 31
0.0
  0
ARC
  8
0
 62
0
 10
380.49998700000094
 20
390.6300967972262
 30
0.0
 40
1.9999999999999998
 50
-90.0
 51
-0.0
  0
LINE
  8
0
 62
0
 10
380.49998700000094
 20
388.63009679722666
 30
0.0
 11
314.49998700000094
 21
388.63009679722666
 31
0.0
  0
ARC
  8
0
 62
0
 10
314.49998700000094
 20
390.6300967972262
 30
0.0
 40
1.9999999999999998
 50
-180.0
 51
-90.0
  0
LINE
  8
0
 62
0
 10
312.49998700000094
 20
390.6300967972262
 30
0.0
 11
312.49998700000094
 21
456.63009679722666
 31
0.0
  0
ARC
  8
0
 62
0
 10
314.49998700000094
 20
456.6300967972266
 30
0.0
 40
1.9999999999999998
 50
90.0
 51
-180.0
  0
LINE
  8
0
 62
0
 10
232.83332033333394
 20
376.96343013055986
 30
0.0
 11
298.8333203333339
 21
376.96343013055986
 31
0.0
  0
ARC
  8
0
 62
0
 10
298.8333203333339
 20
374.9634301305594
 30
0.0
 40
1.9999999999999998
 50
-0.0
 51
90.0
  0
LINE
  8
0
 62
0
 10
300.8333203333339
 20
374.9634301305593
 30
0.0
 11
300.8333203333339
 21
308.96343013055974
 31
0.0
  0
ARC
  8
0
 62
0
 10
298.8333203333339
 20
308.9634301305602
 30
0.0
 40
1.9999999999999998
 50
-90.0
 51
-0.0
  0
LINE
  8
0
 62
0
 10
298.833320333334
 20
306.9634301305593
 30
0.0
 11
232.83332033333397
 21
306.9634301305593
 31
0.0
  0
ARC
  8
0
 62
0
 10
232.83332033333397
 20
308.9634301305593
 30
0.0
 40
1.9999999999999998
 50
180.0
 51
-90.0
  0
LINE
  8
0
 62
0
 10
230.83332033333397
 20
308.96343013055986
 30
0.0
 11
230.83332033333397
 21
374.9634301305594
 31
0.0
  0
ARC
  8
0
 62
0
 10
232.83332033333397
 20
374.9634301305594
 30
0.0
 40
1.9999999999999998
 50
90.0
 51
-180.0
  0
LINE
  8
0
 62
0
 10
314.49998700000094
 20
295.29676346389255
 30
0.0
 11
380.49998700000094
 21
295.29676346389255
 31
0.0
  0
ARC
  8
0
 62
0
 10
380.49998700000094
 20
293.296763463893
 30
0.0
 40
1.9999999999999998
 50
-0.0
 51
90.0
  0
LINE
  8
0
 62
0
 10
382.49998700000094
 20
293.29676346389294
 30
0.0
 11
382.49998700000094
 21
227.29676346389294
 31
0.0
  0
ARC
  8
0
 62
0
 10
380.49998700000094
 20
227.29676346389297
 30
0.0
 40
1.9999999999999998
 50
-90.0
 51
-0.0
  0
LINE
  8
0
 62
0
 10
380.49998700000094
 20
225.29676346389297
 30
0.0
 11
314.49998700000094
 21
225.29676346389297
 31
0.0
  0
ARC
  8
0
 62
0
 10
314.49998700000094
 20
227.29676346389297
 30
0.0
 40
1.9999999999999998
 50
-180.0
 51
-90.0
  0
LINE
  8
0
 62
0
 10
312.49998700000094
 20
227.29676346389294
 30
0.0
 11
312.49998700000094
 21
293.29676346389294
 31
0.0
  0
ARC
  8
0
 62
0
 10
314.49998700000094
 20
293.296763463893
 30
0.0
 40
1.9999999999999998
 50
90.0
 51
-180.0
  0
LINE
  8
0
 62
0
 10
314.49998700000094
 20
213.63009679722617
 30
0.0
 11
380.49998700000094
 21
213.63009679722617
 31
0.0
  0
ARC
  8
0
 62
0
 10
380.49998700000094
 20
211.63009679722623
 30
0.0
 40
1.9999999999999998
 50
-0.0
 51
90.0
  0
LINE
  8
0
 62
0
 10
382.49998700000094
 20
211.63009679722623
 30
0.0
 11
382.49998700000094
 21
145.63009679722632
 31
0.0
  0
ARC
  8
0
 62
0
 10
380.49998700000094
 20
145.6300967972264
 30
0.0
 40
1.9999999999999998
 50
-90.0
 51
-0.0
  0
LINE
  8
0
 62
0
 10
380.49998700000094
 20
143.63009679722606
 30
0.0
 11
314.49998700000094
 21
143.63009679722606
 31
0.0
  0
ARC
  8
0
 62
0
 10
314.49998700000094
 20
145.6300967972264
 30
0.0
 40
1.9999999999999998
 50
-180.0
 51
-90.0
  0
LINE
  8
0
 62
0
 10
312.49998700000094
 20
145.63009679722632
 30
0.0
 11
312.49998700000094
 21
211.63009679722626
 31
0.0
  0
ARC
  8
0
 62
0
 10
314.49998700000094
 20
211.63009679722623
 30
0.0
 40
1.9999999999999998
 50
90.0
 51
-180.0
  0
ENDBLK
  0
ENDSEC
  0
SECTION
  2
ENTITIES
  0
INSERT
  2
POCKET
  8
0
 62
0
 10
0.0
 20
0.0
 30
0.0
  0
ENDSEC
  0
EOF
